0
SECTION
2
HEADER
9
$LTSCALE
40
0.5
9
$LIMMIN
10
0
20
0
9
$LIMMAX
10
12
20
9
9
$EXTMIN
10
5
20
3.1
9
$EXTMAX
10
5.750127
20
4.4
9
$SNAPMODE
70
1
9
$SNAPUNIT
10
0.1
20
0.1
9
$GRIDMODE
70
0
9
$GRIDUNIT
10
0
20
0
9
$ORTHOMODE
70
0
9
$TEXTSTYLE
7
txt
9
$CLAYER
8
1
9
$CECOLOR
62
6
9
$CELTYPE
6
CONTINUOUS
9
$OSMODE
70
0
0
ENDSEC
0
SECTION
2
TABLES
0
TABLE
2
STYLE
70
1
0
STYLE
2
STANDARD
70
0
40
0
41
1
50
0
71
0
42
0.2
3
txt
4

0
ENDTAB
0
TABLE
2
LTYPE
70
9
0
LTYPE
2
DASHED
70
0
3
__ __ __ __ __ __ __ __ __ __ __ __ __ __ __
72
65
73
2
40
0.75
49
0.5
49
-0.25
0
LTYPE
2
HIDDEN
70
0
3
_ _ _ _ _ _ _ _ _ _ _ _ _ _ _ _ _ _ _ _ _ _ 
72
65
73
2
40
0.375
49
0.25
49
-0.125
0
LTYPE
2
CENTER
70
0
3
____ _ ____ _ ____ _ ____ _ ____ _ ____ _ __
72
65
73
4
40
2
49
1.25
49
-0.25
49
0.25
49
-0.25
0
LTYPE
2
PHANTOM
70
0
3
_____ _ _ _____ _ _ _____ _ _ _____ _ _ ____
72
65
73
6
40
2.5
49
1.25
49
-0.25
49
0.25
49
-0.25
49
0.25
49
-0.25
0
LTYPE
2
DOT
70
0
3
............................................
72
65
73
2
40
0.25
49
0
49
-0.25
0
LTYPE
2
DASHDOT
70
0
3
__ . __ . __ . __ . __ . __ . __ . __ . __ .
72
65
73
4
40
1
49
0.5
49
-0.25
49
0
49
-0.25
0
LTYPE
2
BORDER
70
0
3
__ __ . __ __ . __ __ . __ __ . __ __ . __ _
72
65
73
6
40
1.75
49
0.5
49
-0.25
49
0.5
49
-0.25
49
0
49
-0.25
0
LTYPE
2
DIVIDE
70
0
3
__ . . __ . . __ . . __ . . __ . . __ . . __
72
65
73
6
40
1.25
49
0.5
49
-0.25
49
0
49
-0.25
49
0
49
-0.25
0
LTYPE
2
DOTS
70
0
3
close
72
65
73
2
40
0.1
49
0.05
49
-0.05
0
ENDTAB
0
TABLE
2
LAYER
70
10
0
LAYER
2
1
70
0
62
7
6
CONTINUOUS
0
LAYER
2
2
70
0
62
7
6
CONTINUOUS
0
LAYER
2
3
70
0
62
7
6
CONTINUOUS
0
LAYER
2
4
70
0
62
7
6
CONTINUOUS
0
LAYER
2
5
70
0
62
7
6
CONTINUOUS
0
LAYER
2
6
70
0
62
7
6
CONTINUOUS
0
LAYER
2
7
70
0
62
7
6
CONTINUOUS
0
LAYER
2
8
70
0
62
7
6
CONTINUOUS
0
LAYER
2
9
70
0
62
7
6
CONTINUOUS
0
LAYER
2
10
70
0
62
7
6
CONTINUOUS
0
ENDTAB
0
ENDSEC
0
SECTION
2
BLOCKS
0
BLOCK
8
0
2
RELSPDT-G1
70
0
10
0
20
0
0
CIRCLE
8
1
62
6
10
5.7
20
4.2
40
0.04999996
0
SOLID
8
1
62
6
10
5.749149
20
4.192163
11
5.749638
21
4.192163
12
5.749638
22
4.195925
13
5.749638
23
4.195925
0
SOLID
8
1
62
6
10
5.650362
20
4.202195
11
5.649873
21
4.201568
12
5.649873
22
4.198433
13
5.649873
23
4.198433
0
SOLID
8
1
62
6
10
5.652808
20
4.214734
11
5.651829
21
4.21348
12
5.651829
22
4.210972
13
5.651829
23
4.210972
0
SOLID
8
1
62
6
10
5.650851
20
4.19279
11
5.650851
21
4.189655
12
5.65134
22
4.188402
13
5.65134
23
4.188402
0
SOLID
8
1
62
6
10
5.650851
20
4.206583
11
5.650362
21
4.206583
12
5.650362
22
4.202195
13
5.650362
23
4.202195
0
SOLID
8
1
62
6
10
5.748171
20
4.187775
11
5.749149
21
4.187775
12
5.749149
22
4.192163
13
5.749149
23
4.192163
0
SOLID
8
1
62
6
10
5.651829
20
4.210972
11
5.650851
21
4.210345
12
5.650851
22
4.206583
13
5.650851
23
4.206583
0
SOLID
8
1
62
6
10
5.653785
20
4.219122
11
5.652808
21
4.216615
12
5.652808
22
4.214734
13
5.652808
23
4.214734
0
SOLID
8
1
62
6
10
5.649873
20
4.198433
11
5.650362
21
4.193417
12
5.650851
22
4.19279
13
5.650851
23
4.19279
0
SOLID
8
1
62
6
10
5.694866
20
4.249217
11
5.689486
21
4.249217
12
5.688997
22
4.24859
13
5.688997
23
4.24859
0
SOLID
8
1
62
6
10
5.650851
20
4.19279
11
5.65134
21
4.188402
12
5.651829
22
4.186521
13
5.651829
23
4.186521
0
SOLID
8
1
62
6
10
5.735456
20
4.235424
11
5.734478
21
4.236677
12
5.730566
22
4.239812
13
5.730566
23
4.239812
0
SOLID
8
1
62
6
10
5.657698
20
4.172728
11
5.66161
21
4.167712
12
5.662099
22
4.167712
13
5.662099
23
4.167712
0
SOLID
8
1
62
6
10
5.650851
20
4.19279
11
5.651829
21
4.186521
12
5.652318
22
4.185894
13
5.652318
23
4.185894
0
SOLID
8
1
62
6
10
5.68753
20
4.151411
11
5.688997
21
4.150784
12
5.694866
22
4.150784
13
5.694866
23
4.150784
0
SOLID
8
1
62
6
10
5.724697
20
4.243574
11
5.720295
21
4.246082
12
5.71785
22
4.246709
13
5.71785
23
4.246709
0
SOLID
8
1
62
6
10
5.712471
20
4.24859
11
5.710025
21
4.249217
12
5.704647
22
4.249217
13
5.704647
23
4.249217
0
SOLID
8
1
62
6
10
5.748171
20
4.187775
11
5.749149
21
4.192163
12
5.749638
22
4.195925
13
5.749638
23
4.195925
0
SOLID
8
1
62
6
10
5.665034
20
4.16395
11
5.665522
21
4.163323
12
5.67188
22
4.158935
13
5.67188
23
4.158935
0
SOLID
8
1
62
6
10
5.725675
20
4.242947
11
5.724697
21
4.243574
12
5.71785
22
4.246709
13
5.71785
23
4.246709
0
SOLID
8
1
62
6
10
5.704647
20
4.249217
11
5.704157
21
4.249844
12
5.695843
22
4.249844
13
5.695843
23
4.249844
0
SOLID
8
1
62
6
10
5.651829
20
4.210972
11
5.650851
21
4.206583
12
5.650362
22
4.202195
13
5.650362
23
4.202195
0
SOLID
8
1
62
6
10
5.695354
20
4.150157
11
5.704647
21
4.150157
12
5.704647
22
4.150784
13
5.704647
23
4.150784
0
SOLID
8
1
62
6
10
5.650362
20
4.202195
11
5.649873
21
4.198433
12
5.650851
22
4.19279
13
5.650851
23
4.19279
0
SOLID
8
1
62
6
10
5.694866
20
4.150784
11
5.695354
21
4.150157
12
5.704647
22
4.150784
13
5.704647
23
4.150784
0
SOLID
8
1
62
6
10
5.704647
20
4.249217
11
5.695843
21
4.249844
12
5.694866
22
4.249217
13
5.694866
23
4.249217
0
SOLID
8
1
62
6
10
5.714427
20
4.247962
11
5.712471
21
4.24859
12
5.704647
22
4.249217
13
5.704647
23
4.249217
0
SOLID
8
1
62
6
10
5.688997
20
4.24859
11
5.68753
21
4.24859
12
5.679216
22
4.245455
13
5.679216
23
4.245455
0
SOLID
8
1
62
6
10
5.744748
20
4.222257
11
5.739857
21
4.231035
12
5.73888
22
4.231035
13
5.73888
23
4.231035
0
SOLID
8
1
62
6
10
5.719318
20
4.153919
11
5.724208
21
4.156426
12
5.72861
22
4.158935
13
5.72861
23
4.158935
0
SOLID
8
1
62
6
10
5.749638
20
4.195925
11
5.750127
21
4.197179
12
5.749638
22
4.206583
13
5.749638
23
4.206583
0
SOLID
8
1
62
6
10
5.725675
20
4.242947
11
5.71785
21
4.246709
12
5.715894
22
4.247335
13
5.715894
23
4.247335
0
SOLID
8
1
62
6
10
5.653296
20
4.182759
11
5.655253
21
4.177743
12
5.657698
22
4.172728
13
5.657698
23
4.172728
0
SOLID
8
1
62
6
10
5.715894
20
4.247335
11
5.714427
21
4.247962
12
5.704647
22
4.249217
13
5.704647
23
4.249217
0
SOLID
8
1
62
6
10
5.670902
20
4.240439
11
5.665522
21
4.236051
12
5.662099
22
4.232915
13
5.662099
23
4.232915
0
SOLID
8
1
62
6
10
5.73888
20
4.231035
11
5.735456
21
4.235424
12
5.730566
22
4.239812
13
5.730566
23
4.239812
0
SOLID
8
1
62
6
10
5.670902
20
4.240439
11
5.662099
21
4.232915
12
5.66161
22
4.232289
13
5.66161
23
4.232289
0
SOLID
8
1
62
6
10
5.652808
20
4.214734
11
5.651829
21
4.210972
12
5.650362
22
4.202195
13
5.650362
23
4.202195
0
SOLID
8
1
62
6
10
5.662099
20
4.167712
11
5.665034
21
4.16395
12
5.67188
22
4.158935
13
5.67188
23
4.158935
0
SOLID
8
1
62
6
10
5.688997
20
4.24859
11
5.679216
21
4.245455
12
5.676281
22
4.243574
13
5.676281
23
4.243574
0
SOLID
8
1
62
6
10
5.73888
20
4.168966
11
5.742792
21
4.173355
12
5.746215
22
4.180878
13
5.746215
23
4.180878
0
SOLID
8
1
62
6
10
5.72861
20
4.158935
11
5.735456
21
4.16395
12
5.73888
22
4.168966
13
5.73888
23
4.168966
0
SOLID
8
1
62
6
10
5.704647
20
4.150784
11
5.710025
21
4.150784
12
5.719318
22
4.153919
13
5.719318
23
4.153919
0
SOLID
8
1
62
6
10
5.746215
20
4.180878
11
5.748171
21
4.187775
12
5.749638
22
4.195925
13
5.749638
23
4.195925
0
SOLID
8
1
62
6
10
5.704647
20
4.249217
11
5.694866
21
4.249217
12
5.688997
22
4.24859
13
5.688997
23
4.24859
0
SOLID
8
1
62
6
10
5.679216
20
4.154546
11
5.68753
21
4.151411
12
5.694866
22
4.150784
13
5.694866
23
4.150784
0
SOLID
8
1
62
6
10
5.650362
20
4.202195
11
5.650851
21
4.19279
12
5.652318
22
4.185894
13
5.652318
23
4.185894
0
SOLID
8
1
62
6
10
5.749638
20
4.206583
11
5.748171
21
4.212853
12
5.744748
22
4.222257
13
5.744748
23
4.222257
0
SOLID
8
1
62
6
10
5.730566
20
4.239812
11
5.725675
21
4.242947
12
5.715894
22
4.247335
13
5.715894
23
4.247335
0
SOLID
8
1
62
6
10
5.653785
20
4.219122
11
5.652808
21
4.214734
12
5.650362
22
4.202195
13
5.650362
23
4.202195
0
SOLID
8
1
62
6
10
5.653296
20
4.182759
11
5.657698
21
4.172728
12
5.662099
22
4.167712
13
5.662099
23
4.167712
0
SOLID
8
1
62
6
10
5.670902
20
4.240439
11
5.66161
21
4.232289
12
5.658186
22
4.227273
13
5.658186
23
4.227273
0
SOLID
8
1
62
6
10
5.654274
20
4.220376
11
5.653785
21
4.219122
12
5.650362
22
4.202195
13
5.650362
23
4.202195
0
SOLID
8
1
62
6
10
5.650362
20
4.202195
11
5.652318
21
4.185894
12
5.652808
22
4.183386
13
5.652808
23
4.183386
0
SOLID
8
1
62
6
10
5.670902
20
4.240439
11
5.658186
21
4.227273
12
5.657698
22
4.226646
13
5.657698
23
4.226646
0
SOLID
8
1
62
6
10
5.654764
20
4.221004
11
5.654274
21
4.220376
12
5.650362
22
4.202195
13
5.650362
23
4.202195
0
SOLID
8
1
62
6
10
5.650362
20
4.202195
11
5.652808
21
4.183386
12
5.653296
22
4.182759
13
5.653296
23
4.182759
0
SOLID
8
1
62
6
10
5.688997
20
4.24859
11
5.676281
21
4.243574
12
5.670902
22
4.240439
13
5.670902
23
4.240439
0
SOLID
8
1
62
6
10
5.655253
20
4.222257
11
5.654764
21
4.221004
12
5.650362
22
4.202195
13
5.650362
23
4.202195
0
SOLID
8
1
62
6
10
5.662099
20
4.167712
11
5.67188
21
4.158935
12
5.679216
22
4.154546
13
5.679216
23
4.154546
0
SOLID
8
1
62
6
10
5.670902
20
4.240439
11
5.657698
21
4.226646
12
5.65623
22
4.224138
13
5.65623
23
4.224138
0
SOLID
8
1
62
6
10
5.744748
20
4.222257
11
5.73888
21
4.231035
12
5.730566
22
4.239812
13
5.730566
23
4.239812
0
SOLID
8
1
62
6
10
5.65623
20
4.224138
11
5.655253
21
4.222257
12
5.650362
22
4.202195
13
5.650362
23
4.202195
0
SOLID
8
1
62
6
10
5.694866
20
4.150784
11
5.704647
21
4.150784
12
5.719318
22
4.153919
13
5.719318
23
4.153919
0
SOLID
8
1
62
6
10
5.719318
20
4.153919
11
5.72861
21
4.158935
12
5.73888
22
4.168966
13
5.73888
23
4.168966
0
SOLID
8
1
62
6
10
5.746215
20
4.180878
11
5.749638
21
4.195925
12
5.749638
22
4.206583
13
5.749638
23
4.206583
0
SOLID
8
1
62
6
10
5.715894
20
4.247335
11
5.704647
21
4.249217
12
5.688997
22
4.24859
13
5.688997
23
4.24859
0
SOLID
8
1
62
6
10
5.650362
20
4.202195
11
5.653296
21
4.182759
12
5.662099
22
4.167712
13
5.662099
23
4.167712
0
SOLID
8
1
62
6
10
5.662099
20
4.167712
11
5.679216
21
4.154546
12
5.694866
22
4.150784
13
5.694866
23
4.150784
0
SOLID
8
1
62
6
10
5.719318
20
4.153919
11
5.73888
21
4.168966
12
5.746215
22
4.180878
13
5.746215
23
4.180878
0
SOLID
8
1
62
6
10
5.744748
20
4.222257
11
5.730566
21
4.239812
12
5.715894
22
4.247335
13
5.715894
23
4.247335
0
SOLID
8
1
62
6
10
5.688997
20
4.24859
11
5.670902
21
4.240439
12
5.65623
22
4.224138
13
5.65623
23
4.224138
0
SOLID
8
1
62
6
10
5.746215
20
4.180878
11
5.749638
21
4.206583
12
5.744748
22
4.222257
13
5.744748
23
4.222257
0
SOLID
8
1
62
6
10
5.65623
20
4.224138
11
5.650362
21
4.202195
12
5.662099
22
4.167712
13
5.662099
23
4.167712
0
SOLID
8
1
62
6
10
5.662099
20
4.167712
11
5.694866
21
4.150784
12
5.719318
22
4.153919
13
5.719318
23
4.153919
0
SOLID
8
1
62
6
10
5.744748
20
4.222257
11
5.715894
21
4.247335
12
5.688997
22
4.24859
13
5.688997
23
4.24859
0
SOLID
8
1
62
6
10
5.719318
20
4.153919
11
5.746215
21
4.180878
12
5.744748
22
4.222257
13
5.744748
23
4.222257
0
SOLID
8
1
62
6
10
5.688997
20
4.24859
11
5.65623
21
4.224138
12
5.662099
22
4.167712
13
5.662099
23
4.167712
0
SOLID
8
1
62
6
10
5.662099
20
4.167712
11
5.719318
21
4.153919
12
5.744748
22
4.222257
13
5.744748
23
4.222257
0
SOLID
8
1
62
6
10
5.662099
20
4.167712
11
5.744748
21
4.222257
12
5.688997
22
4.24859
13
5.688997
23
4.24859
0
ENDBLK
8
0
0
ENDSEC
0
SECTION
2
ENTITIES
0
ARC
8
1
62
6
10
5.5
20
3.4
40
0.1
50
270
51
90
0
ARC
8
1
62
6
10
5.5
20
3.2
40
0.1
50
270
51
90
0
LINE
8
1
62
6
10
5.5
20
3.1
11
5.4
21
3.1
0
LINE
8
1
62
6
10
5.4
20
3.1
11
5.2
21
3.1
0
ARC
8
1
62
6
10
5.5
20
3.6
40
0.1
50
270
51
90
0
ARC
8
1
62
6
10
5.5
20
3.8
40
0.1
50
270
51
90
0
LINE
8
1
62
6
10
5.5
20
3.9
11
5.4
21
3.9
0
LINE
8
1
62
6
10
5.2
20
3.9
11
5.4
21
3.9
0
LINE
8
1
62
6
10
5.3
20
4.3
11
5.7
21
4.2
0
INSERT
8
1
2
RELSPDT-G1
10
0
20
0
0
LINE
8
1
62
6
10
5
20
4.4
11
5.2
21
4.4
0
LINE
8
1
62
6
10
5.2
20
4.4
11
5.4
21
4.4
0
LINE
8
1
62
6
10
5.4
20
4.4
11
5.3
21
4.3
0
LINE
8
1
62
6
10
5.3
20
4.3
11
5.2
21
4.4
0
LINE
8
1
62
6
10
5.2
20
4
11
5
21
4
0
LINE
8
1
62
6
10
5.4
20
4
11
5.2
21
4
0
LINE
8
1
62
6
10
5.3
20
4.1
11
5.4
21
4
0
LINE
8
1
62
6
10
5.2
20
4
11
5.3
21
4.1
0
ENDSEC
0
EOF
