0
SECTION
2
HEADER
9
$LTSCALE
40
0.5
9
$LIMMIN
10
0
20
0
9
$LIMMAX
10
12
20
9
9
$EXTMIN
10
8.495599
20
1.801881
9
$EXTMAX
10
9.595598
20
3.001881
9
$SNAPMODE
70
1
9
$SNAPUNIT
10
0.1
20
0.1
9
$GRIDMODE
70
0
9
$GRIDUNIT
10
0.1
20
0.1
9
$ORTHOMODE
70
0
9
$TEXTSTYLE
7
txt
9
$CLAYER
8
1
9
$CECOLOR
62
1
9
$CELTYPE
6
CONTINUOUS
9
$OSMODE
70
0
0
ENDSEC
0
SECTION
2
TABLES
0
TABLE
2
STYLE
70
1
0
STYLE
2
STANDARD
70
0
40
0
41
1
50
0
71
0
42
0.2
3
txt
4

0
ENDTAB
0
TABLE
2
LTYPE
70
9
0
LTYPE
2
DASHED
70
0
3
__ __ __ __ __ __ __ __ __ __ __ __ __ __ __
72
65
73
2
40
0.75
49
0.5
49
-0.25
0
LTYPE
2
HIDDEN
70
0
3
_ _ _ _ _ _ _ _ _ _ _ _ _ _ _ _ _ _ _ _ _ _ 
72
65
73
2
40
0.375
49
0.25
49
-0.125
0
LTYPE
2
CENTER
70
0
3
____ _ ____ _ ____ _ ____ _ ____ _ ____ _ __
72
65
73
4
40
2
49
1.25
49
-0.25
49
0.25
49
-0.25
0
LTYPE
2
PHANTOM
70
0
3
_____ _ _ _____ _ _ _____ _ _ _____ _ _ ____
72
65
73
6
40
2.5
49
1.25
49
-0.25
49
0.25
49
-0.25
49
0.25
49
-0.25
0
LTYPE
2
DOT
70
0
3
............................................
72
65
73
2
40
0.25
49
0
49
-0.25
0
LTYPE
2
DASHDOT
70
0
3
__ . __ . __ . __ . __ . __ . __ . __ . __ .
72
65
73
4
40
1
49
0.5
49
-0.25
49
0
49
-0.25
0
LTYPE
2
BORDER
70
0
3
__ __ . __ __ . __ __ . __ __ . __ __ . __ _
72
65
73
6
40
1.75
49
0.5
49
-0.25
49
0.5
49
-0.25
49
0
49
-0.25
0
LTYPE
2
DIVIDE
70
0
3
__ . . __ . . __ . . __ . . __ . . __ . . __
72
65
73
6
40
1.25
49
0.5
49
-0.25
49
0
49
-0.25
49
0
49
-0.25
0
LTYPE
2
DOTS
70
0
3
close
72
65
73
2
40
0.1
49
0.05
49
-0.05
0
ENDTAB
0
TABLE
2
LAYER
70
10
0
LAYER
2
1
70
0
62
7
6
CONTINUOUS
0
LAYER
2
2
70
0
62
7
6
CONTINUOUS
0
LAYER
2
3
70
0
62
7
6
CONTINUOUS
0
LAYER
2
4
70
0
62
7
6
CONTINUOUS
0
LAYER
2
5
70
0
62
7
6
CONTINUOUS
0
LAYER
2
6
70
0
62
7
6
CONTINUOUS
0
LAYER
2
7
70
0
62
7
6
CONTINUOUS
0
LAYER
2
8
70
0
62
7
6
CONTINUOUS
0
LAYER
2
9
70
0
62
7
6
CONTINUOUS
0
LAYER
2
10
70
0
62
7
6
CONTINUOUS
0
ENDTAB
0
ENDSEC
0
SECTION
2
BLOCKS
0
BLOCK
8
0
2
QNMOSFET-G1
70
0
10
0
20
0
0
INSERT
8
1
2
QNMOSFET-G2
10
0
20
0
0
ENDBLK
8
0
0
BLOCK
8
0
2
QNMOSFET-G2
70
0
10
0
20
0
0
CIRCLE
8
1
62
3
10
9.095598
20
2.401881
40
0.5
0
LINE
8
1
62
3
10
9.295599
20
2.701881
11
9.295599
21
3.001881
0
LINE
8
1
62
3
10
8.995599
20
2.801881
11
8.995599
21
2.601881
0
LINE
8
1
62
3
10
8.995599
20
2.501881
11
8.995599
21
2.301881
0
LINE
8
1
62
3
10
8.995599
20
2.201881
11
8.995599
21
2.001881
0
LINE
8
1
62
3
10
8.895598
20
2.701881
11
8.895598
21
2.101881
0
LINE
8
1
62
3
10
8.895598
20
2.101881
11
8.495599
21
2.101881
0
LINE
8
1
62
3
10
8.995599
20
2.701881
11
9.195599
21
2.701881
0
LINE
8
1
62
3
10
8.995599
20
2.401881
11
9.195599
21
2.401881
0
LINE
8
1
62
3
10
8.995599
20
2.101881
11
9.195599
21
2.101881
0
CIRCLE
8
1
62
3
10
8.995599
20
2.401881
40
0
0
LINE
8
1
62
3
10
9.195599
20
2.701881
11
9.295599
21
2.701881
0
LINE
8
1
62
3
10
9.195599
20
2.401881
11
9.295599
21
2.401881
0
LINE
8
1
62
3
10
9.195599
20
2.101881
11
9.295599
21
2.101881
0
LINE
8
1
62
3
10
9.295599
20
2.401881
11
9.295599
21
1.801881
0
CIRCLE
8
1
62
3
10
9.295599
20
2.401881
40
0
0
CIRCLE
8
1
62
3
10
8.995599
20
2.401881
40
0
0
LINE
8
1
62
3
10
8.995599
20
2.401881
11
9.095598
21
2.501881
0
LINE
8
1
62
3
10
8.995599
20
2.401881
11
9.095598
21
2.301881
0
LINE
8
1
62
3
10
9.095598
20
2.301881
11
9.095598
21
2.501881
0
SOLID
8
1
62
3
10
8.995599
20
2.401881
11
9.095598
21
2.501881
12
9.095598
22
2.301881
13
9.095598
23
2.301881
0
CIRCLE
8
1
62
3
10
9.295599
20
2.101881
40
0.05341525
0
SOLID
8
1
62
3
10
9.255635
20
2.137523
11
9.248689
21
2.126638
12
9.244829
22
2.115752
13
9.244829
23
2.115752
0
SOLID
8
1
62
3
10
9.311212
20
2.05143
11
9.325107
21
2.058357
12
9.334369
22
2.066274
13
9.334369
23
2.066274
0
SOLID
8
1
62
3
10
9.255635
20
2.137523
11
9.244829
21
2.115752
12
9.242514
22
2.102888
13
9.242514
23
2.102888
0
SOLID
8
1
62
3
10
9.295774
20
2.049451
11
9.311212
21
2.05143
12
9.334369
22
2.066274
13
9.334369
23
2.066274
0
SOLID
8
1
62
3
10
9.295774
20
2.049451
11
9.334369
21
2.066274
12
9.255635
22
2.137523
13
9.255635
23
2.137523
0
SOLID
8
1
62
3
10
9.295774
20
2.049451
11
9.255635
21
2.137523
12
9.242514
22
2.102888
13
9.242514
23
2.102888
0
SOLID
8
1
62
3
10
9.289599
20
2.050441
11
9.289599
21
2.049451
12
9.300406
22
2.049451
13
9.300406
23
2.049451
0
SOLID
8
1
62
3
10
9.272617
20
2.054399
11
9.28188
21
2.050441
12
9.289599
22
2.050441
13
9.289599
23
2.050441
0
SOLID
8
1
62
3
10
9.301177
20
2.155335
11
9.289599
21
2.155335
12
9.282652
22
2.153356
13
9.282652
23
2.153356
0
SOLID
8
1
62
3
10
9.244829
20
2.088044
11
9.248689
21
2.078149
12
9.254092
22
2.068253
13
9.254092
23
2.068253
0
SOLID
8
1
62
3
10
9.272617
20
2.054399
11
9.289599
21
2.050441
12
9.300406
22
2.049451
13
9.300406
23
2.049451
0
SOLID
8
1
62
3
10
9.301177
20
2.155335
11
9.282652
21
2.153356
12
9.271846
22
2.150388
13
9.271846
23
2.150388
0
SOLID
8
1
62
3
10
9.244829
20
2.088044
11
9.254092
21
2.068253
12
9.263354
22
2.061326
13
9.263354
23
2.061326
0
SOLID
8
1
62
3
10
9.263354
20
2.061326
11
9.272617
21
2.054399
12
9.300406
22
2.049451
13
9.300406
23
2.049451
0
SOLID
8
1
62
3
10
9.243285
20
2.100909
11
9.244829
21
2.088044
12
9.263354
22
2.061326
13
9.263354
23
2.061326
0
SOLID
8
1
62
3
10
9.301177
20
2.155335
11
9.271846
21
2.150388
12
9.255635
22
2.136533
13
9.255635
23
2.136533
0
SOLID
8
1
62
3
10
9.255635
20
2.136533
11
9.243285
21
2.100909
12
9.263354
22
2.061326
13
9.263354
23
2.061326
0
SOLID
8
1
62
3
10
9.255635
20
2.136533
11
9.263354
21
2.061326
12
9.300406
22
2.049451
13
9.300406
23
2.049451
0
SOLID
8
1
62
3
10
9.300406
20
2.049451
11
9.301177
21
2.155335
12
9.255635
22
2.136533
13
9.255635
23
2.136533
0
SOLID
8
1
62
3
10
9.333597
20
2.065284
11
9.337457
21
2.069243
12
9.342088
22
2.07617
13
9.342088
23
2.07617
0
SOLID
8
1
62
3
10
9.342088
20
2.07617
11
9.345947
21
2.086065
12
9.348263
22
2.092992
13
9.348263
23
2.092992
0
SOLID
8
1
62
3
10
9.348263
20
2.105857
11
9.346719
21
2.115752
12
9.342859
22
2.124659
13
9.342859
23
2.124659
0
SOLID
8
1
62
3
10
9.342859
20
2.124659
11
9.338228
21
2.134554
12
9.331282
22
2.141481
13
9.331282
23
2.141481
0
SOLID
8
1
62
3
10
9.322019
20
2.148408
11
9.312756
21
2.153356
12
9.30195
22
2.153356
13
9.30195
23
2.153356
0
SOLID
8
1
62
3
10
9.342088
20
2.07617
11
9.348263
21
2.092992
12
9.348263
22
2.105857
13
9.348263
23
2.105857
0
SOLID
8
1
62
3
10
9.342859
20
2.124659
11
9.331282
21
2.141481
12
9.322019
22
2.148408
13
9.322019
23
2.148408
0
SOLID
8
1
62
3
10
9.333597
20
2.065284
11
9.342088
21
2.07617
12
9.348263
22
2.105857
13
9.348263
23
2.105857
0
SOLID
8
1
62
3
10
9.342859
20
2.124659
11
9.322019
21
2.148408
12
9.30195
22
2.153356
13
9.30195
23
2.153356
0
SOLID
8
1
62
3
10
9.333597
20
2.065284
11
9.348263
21
2.105857
12
9.342859
22
2.124659
13
9.342859
23
2.124659
0
SOLID
8
1
62
3
10
9.281108
20
2.100909
11
9.333597
21
2.065284
12
9.342859
22
2.124659
13
9.342859
23
2.124659
0
SOLID
8
1
62
3
10
9.281108
20
2.100909
11
9.342859
21
2.124659
12
9.30195
22
2.153356
13
9.30195
23
2.153356
0
SOLID
8
1
62
3
10
9.255716
20
2.137424
11
9.260517
21
2.14204
12
9.261118
22
2.140116
13
9.267118
23
2.146656
0
POLYLINE
8
1
62
3
70
1
66
1
40
0
41
0
0
VERTEX
8
1
10
9.256317
20
2.137424
42
0
70
0
0
VERTEX
8
1
10
9.257817
20
2.134731
42
0
70
0
0
VERTEX
8
1
10
9.257817
20
2.139347
42
0
70
0
0
VERTEX
8
1
10
9.255116
20
2.13627
42
0
70
0
0
VERTEX
8
1
10
9.257817
20
2.135116
42
0
70
0
0
VERTEX
8
1
10
9.257217
20
2.135501
42
0
70
0
0
VERTEX
8
1
10
9.267118
20
2.142425
42
0
70
0
0
VERTEX
8
1
10
9.256317
20
2.137424
42
0
70
0
0
SEQEND
8
1
0
SOLID
8
1
62
3
10
9.253316
20
2.134347
11
9.251216
21
2.131654
12
9.249415
22
2.128192
13
9.249415
23
2.128192
0
SOLID
8
1
62
3
10
9.256617
20
2.126653
11
9.254517
21
2.135885
12
9.253316
22
2.134347
13
9.253316
23
2.134347
0
SOLID
8
1
62
3
10
9.253316
20
2.134347
11
9.249415
21
2.128192
12
9.256617
22
2.126653
13
9.256617
23
2.126653
0
SOLID
8
1
62
3
10
9.27822
20
2.152426
11
9.284221
21
2.153964
12
9.28122
22
2.149348
13
9.28122
23
2.149348
0
SOLID
8
1
62
3
10
9.301023
20
2.155118
11
9.309425
21
2.15358
12
9.299523
22
2.149733
13
9.299523
23
2.149733
0
SOLID
8
1
62
3
10
9.307625
20
2.049721
11
9.309725
21
2.050106
12
9.310925
22
2.050875
13
9.310925
23
2.050875
0
SOLID
8
1
62
3
10
9.299224
20
2.048952
11
9.303424
21
2.048952
12
9.305824
22
2.049336
13
9.305824
23
2.049336
0
SOLID
8
1
62
3
10
9.315726
20
2.052414
11
9.319926
21
2.054337
12
9.322627
22
2.055876
13
9.322627
23
2.055876
0
SOLID
8
1
62
3
10
9.299224
20
2.048952
11
9.305824
21
2.049336
12
9.307625
22
2.049721
13
9.307625
23
2.049721
0
SOLID
8
1
62
3
10
9.282421
20
2.05049
11
9.287521
21
2.049336
12
9.291122
22
2.048952
13
9.291122
23
2.048952
0
SOLID
8
1
62
3
10
9.326828
20
2.058953
11
9.330129
21
2.061261
12
9.334029
22
2.065108
13
9.334029
23
2.065108
0
SOLID
8
1
62
3
10
9.299224
20
2.048952
11
9.307625
21
2.049721
12
9.310925
22
2.050875
13
9.310925
23
2.050875
0
SOLID
8
1
62
3
10
9.310925
20
2.050875
11
9.315726
21
2.052414
12
9.322627
22
2.055876
13
9.322627
23
2.055876
0
SOLID
8
1
62
3
10
9.326828
20
2.058953
11
9.334029
21
2.065108
12
9.332829
22
2.072031
13
9.332829
23
2.072031
0
SOLID
8
1
62
3
10
9.282421
20
2.05049
11
9.291122
21
2.048952
12
9.299224
22
2.048952
13
9.299224
23
2.048952
0
SOLID
8
1
62
3
10
9.310925
20
2.050875
11
9.322627
21
2.055876
12
9.326828
22
2.058953
13
9.326828
23
2.058953
0
SOLID
8
1
62
3
10
9.282421
20
2.05049
11
9.299224
21
2.048952
12
9.310925
22
2.050875
13
9.310925
23
2.050875
0
SOLID
8
1
62
3
10
9.332829
20
2.072031
11
9.282421
21
2.05049
12
9.310925
22
2.050875
13
9.310925
23
2.050875
0
SOLID
8
1
62
3
10
9.310925
20
2.050875
11
9.326828
21
2.058953
12
9.332829
22
2.072031
13
9.332829
23
2.072031
0
SOLID
8
1
62
3
10
9.245815
20
2.083187
11
9.247616
21
2.078955
12
9.249716
22
2.075109
13
9.249716
23
2.075109
0
SOLID
8
1
62
3
10
9.257517
20
2.064338
11
9.261417
21
2.060876
12
9.266519
22
2.057414
13
9.266519
23
2.057414
0
SOLID
8
1
62
3
10
9.242815
20
2.094342
11
9.244315
21
2.087803
12
9.245815
22
2.083187
13
9.245815
23
2.083187
0
SOLID
8
1
62
3
10
9.266519
20
2.057414
11
9.274019
21
2.052798
12
9.27822
22
2.05126
13
9.27822
23
2.05126
0
SOLID
8
1
62
3
10
9.249716
20
2.075109
11
9.253316
21
2.069723
12
9.257517
22
2.064338
13
9.257517
23
2.064338
0
SOLID
8
1
62
3
10
9.242214
20
2.102035
11
9.242815
21
2.094342
12
9.245815
22
2.083187
13
9.245815
23
2.083187
0
SOLID
8
1
62
3
10
9.245815
20
2.083187
11
9.249716
21
2.075109
12
9.257517
22
2.064338
13
9.257517
23
2.064338
0
SOLID
8
1
62
3
10
9.257517
20
2.064338
11
9.266519
21
2.057414
12
9.27822
22
2.05126
13
9.27822
23
2.05126
0
SOLID
8
1
62
3
10
9.28032
20
2.102804
11
9.242214
21
2.102035
12
9.245815
22
2.083187
13
9.245815
23
2.083187
0
SOLID
8
1
62
3
10
9.28032
20
2.102804
11
9.245815
21
2.083187
12
9.257517
22
2.064338
13
9.257517
23
2.064338
0
SOLID
8
1
62
3
10
9.257517
20
2.064338
11
9.27822
21
2.05126
12
9.28032
22
2.102804
13
9.28032
23
2.102804
0
SOLID
8
1
62
3
10
9.243114
20
2.108959
11
9.242214
21
2.102035
12
9.244015
22
2.10165
13
9.244015
23
2.10165
0
SOLID
8
1
62
3
10
9.243715
20
2.112806
11
9.243114
21
2.108959
12
9.244015
22
2.10165
13
9.244015
23
2.10165
0
SOLID
8
1
62
3
10
9.248216
20
2.126653
11
9.244315
21
2.117421
12
9.243715
22
2.112806
13
9.243715
23
2.112806
0
SOLID
8
1
62
3
10
9.243715
20
2.112806
11
9.244015
21
2.10165
12
9.253316
22
2.1305
13
9.253316
23
2.1305
0
SOLID
8
1
62
3
10
9.253316
20
2.1305
11
9.248216
21
2.126653
12
9.243715
22
2.112806
13
9.243715
23
2.112806
0
SOLID
8
1
62
3
10
9.345131
20
2.081263
11
9.346631
21
2.085495
12
9.347531
22
2.090111
13
9.347531
23
2.090111
0
SOLID
8
1
62
3
10
9.345131
20
2.081263
11
9.347531
21
2.090111
12
9.336129
22
2.086648
13
9.336129
23
2.086648
0
SOLID
8
1
62
3
10
9.339129
20
2.071647
11
9.342731
21
2.076647
12
9.345131
22
2.081263
13
9.345131
23
2.081263
0
SOLID
8
1
62
3
10
9.339129
20
2.071647
11
9.345131
21
2.081263
12
9.336129
22
2.086648
13
9.336129
23
2.086648
0
SOLID
8
1
62
3
10
9.344831
20
2.122422
11
9.33943
21
2.132423
12
9.34003
22
2.119345
13
9.34003
23
2.119345
0
SOLID
8
1
62
3
10
9.347231
20
2.115883
11
9.344831
21
2.122422
12
9.34003
22
2.119345
13
9.34003
23
2.119345
0
SOLID
8
1
62
3
10
9.348432
20
2.094727
11
9.349031
21
2.100112
12
9.349031
22
2.106651
13
9.349031
23
2.106651
0
SOLID
8
1
62
3
10
9.34003
20
2.119345
11
9.348432
21
2.094727
12
9.349031
22
2.106651
13
9.349031
23
2.106651
0
SOLID
8
1
62
3
10
9.34003
20
2.119345
11
9.349031
21
2.106651
12
9.347231
22
2.115883
13
9.347231
23
2.115883
0
ENDBLK
8
0
0
ENDSEC
0
SECTION
2
ENTITIES
0
INSERT
8
1
2
QNMOSFET-G1
10
0
20
0
0
ENDSEC
0
EOF
