0
SECTION
2
HEADER
9
$LTSCALE
40
0.5
9
$LIMMIN
10
0
20
0
9
$LIMMAX
10
12
20
9
9
$EXTMIN
10
9.749873
20
2.95
9
$EXTMAX
10
9.850127
20
3.05
9
$SNAPMODE
70
1
9
$SNAPUNIT
10
0.1
20
0.1
9
$GRIDMODE
70
1
9
$GRIDUNIT
10
0.1
20
0.1
9
$ORTHOMODE
70
0
9
$TEXTSTYLE
7
txt
9
$CLAYER
8
1
9
$CECOLOR
62
3
9
$CELTYPE
6
CONTINUOUS
9
$OSMODE
70
0
0
ENDSEC
0
SECTION
2
TABLES
0
TABLE
2
STYLE
70
1
0
STYLE
2
STANDARD
70
0
40
0
41
1
50
0
71
0
42
0.2
3
txt
4

0
ENDTAB
0
TABLE
2
LTYPE
70
9
0
LTYPE
2
DASHED
70
0
3
__ __ __ __ __ __ __ __ __ __ __ __ __ __ __
72
65
73
2
40
0.75
49
0.5
49
-0.25
0
LTYPE
2
HIDDEN
70
0
3
_ _ _ _ _ _ _ _ _ _ _ _ _ _ _ _ _ _ _ _ _ _ 
72
65
73
2
40
0.375
49
0.25
49
-0.125
0
LTYPE
2
CENTER
70
0
3
____ _ ____ _ ____ _ ____ _ ____ _ ____ _ __
72
65
73
4
40
2
49
1.25
49
-0.25
49
0.25
49
-0.25
0
LTYPE
2
PHANTOM
70
0
3
_____ _ _ _____ _ _ _____ _ _ _____ _ _ ____
72
65
73
6
40
2.5
49
1.25
49
-0.25
49
0.25
49
-0.25
49
0.25
49
-0.25
0
LTYPE
2
DOT
70
0
3
............................................
72
65
73
2
40
0.25
49
0
49
-0.25
0
LTYPE
2
DASHDOT
70
0
3
__ . __ . __ . __ . __ . __ . __ . __ . __ .
72
65
73
4
40
1
49
0.5
49
-0.25
49
0
49
-0.25
0
LTYPE
2
BORDER
70
0
3
__ __ . __ __ . __ __ . __ __ . __ __ . __ _
72
65
73
6
40
1.75
49
0.5
49
-0.25
49
0.5
49
-0.25
49
0
49
-0.25
0
LTYPE
2
DIVIDE
70
0
3
__ . . __ . . __ . . __ . . __ . . __ . . __
72
65
73
6
40
1.25
49
0.5
49
-0.25
49
0
49
-0.25
49
0
49
-0.25
0
LTYPE
2
DOTS
70
0
3
close
72
65
73
2
40
0.1
49
0.05
49
-0.05
0
ENDTAB
0
TABLE
2
LAYER
70
10
0
LAYER
2
1
70
0
62
7
6
CONTINUOUS
0
LAYER
2
2
70
0
62
7
6
CONTINUOUS
0
LAYER
2
3
70
0
62
7
6
CONTINUOUS
0
LAYER
2
4
70
0
62
7
6
CONTINUOUS
0
LAYER
2
5
70
0
62
7
6
CONTINUOUS
0
LAYER
2
6
70
0
62
7
6
CONTINUOUS
0
LAYER
2
7
70
0
62
7
6
CONTINUOUS
0
LAYER
2
8
70
0
62
7
6
CONTINUOUS
0
LAYER
2
9
70
0
62
7
6
CONTINUOUS
0
LAYER
2
10
70
0
62
7
6
CONTINUOUS
0
ENDTAB
0
ENDSEC
0
SECTION
2
BLOCKS
0
BLOCK
8
0
2
PNTGREEN-G1
70
0
10
0
20
0
0
CIRCLE
8
1
62
3
10
9.8
20
3
40
0.04999996
0
SOLID
8
1
62
3
10
9.849149
20
2.992163
11
9.849638
21
2.992163
12
9.849638
22
2.995925
13
9.849638
23
2.995925
0
SOLID
8
1
62
3
10
9.750362
20
3.002194
11
9.749873
21
3.001567
12
9.749873
22
2.998433
13
9.749873
23
2.998433
0
SOLID
8
1
62
3
10
9.752808
20
3.014734
11
9.751829
21
3.01348
12
9.751829
22
3.010972
13
9.751829
23
3.010972
0
SOLID
8
1
62
3
10
9.750851
20
2.99279
11
9.750851
21
2.989655
12
9.75134
22
2.988401
13
9.75134
23
2.988401
0
SOLID
8
1
62
3
10
9.750851
20
3.006583
11
9.750362
21
3.006583
12
9.750362
22
3.002194
13
9.750362
23
3.002194
0
SOLID
8
1
62
3
10
9.848171
20
2.987774
11
9.849149
21
2.987774
12
9.849149
22
2.992163
13
9.849149
23
2.992163
0
SOLID
8
1
62
3
10
9.751829
20
3.010972
11
9.750851
21
3.010345
12
9.750851
22
3.006583
13
9.750851
23
3.006583
0
SOLID
8
1
62
3
10
9.753785
20
3.019122
11
9.752808
21
3.016614
12
9.752808
22
3.014734
13
9.752808
23
3.014734
0
SOLID
8
1
62
3
10
9.749873
20
2.998433
11
9.750362
21
2.993417
12
9.750851
22
2.99279
13
9.750851
23
2.99279
0
SOLID
8
1
62
3
10
9.794866
20
3.049216
11
9.789486
21
3.049216
12
9.788997
22
3.048589
13
9.788997
23
3.048589
0
SOLID
8
1
62
3
10
9.750851
20
2.99279
11
9.75134
21
2.988401
12
9.751829
22
2.986521
13
9.751829
23
2.986521
0
SOLID
8
1
62
3
10
9.835456
20
3.035423
11
9.834477
21
3.036677
12
9.830565
22
3.039812
13
9.830565
23
3.039812
0
SOLID
8
1
62
3
10
9.757698
20
2.972727
11
9.76161
21
2.967712
12
9.762099
22
2.967712
13
9.762099
23
2.967712
0
SOLID
8
1
62
3
10
9.750851
20
2.99279
11
9.751829
21
2.986521
12
9.752318
22
2.985893
13
9.752318
23
2.985893
0
SOLID
8
1
62
3
10
9.78753
20
2.951411
11
9.788997
21
2.950784
12
9.794866
22
2.950784
13
9.794866
23
2.950784
0
SOLID
8
1
62
3
10
9.824697
20
3.043574
11
9.820295
21
3.046082
12
9.81785
22
3.046709
13
9.81785
23
3.046709
0
SOLID
8
1
62
3
10
9.81247
20
3.048589
11
9.810025
21
3.049216
12
9.804646
22
3.049216
13
9.804646
23
3.049216
0
SOLID
8
1
62
3
10
9.848171
20
2.987774
11
9.849149
21
2.992163
12
9.849638
22
2.995925
13
9.849638
23
2.995925
0
SOLID
8
1
62
3
10
9.765034
20
2.96395
11
9.765522
21
2.963323
12
9.77188
22
2.958934
13
9.77188
23
2.958934
0
SOLID
8
1
62
3
10
9.825675
20
3.042947
11
9.824697
21
3.043574
12
9.81785
22
3.046709
13
9.81785
23
3.046709
0
SOLID
8
1
62
3
10
9.804646
20
3.049216
11
9.804157
21
3.049843
12
9.795843
22
3.049843
13
9.795843
23
3.049843
0
SOLID
8
1
62
3
10
9.751829
20
3.010972
11
9.750851
21
3.006583
12
9.750362
22
3.002194
13
9.750362
23
3.002194
0
SOLID
8
1
62
3
10
9.795354
20
2.950157
11
9.804646
21
2.950157
12
9.804646
22
2.950784
13
9.804646
23
2.950784
0
SOLID
8
1
62
3
10
9.750362
20
3.002194
11
9.749873
21
2.998433
12
9.750851
22
2.99279
13
9.750851
23
2.99279
0
SOLID
8
1
62
3
10
9.794866
20
2.950784
11
9.795354
21
2.950157
12
9.804646
22
2.950784
13
9.804646
23
2.950784
0
SOLID
8
1
62
3
10
9.804646
20
3.049216
11
9.795843
21
3.049843
12
9.794866
22
3.049216
13
9.794866
23
3.049216
0
SOLID
8
1
62
3
10
9.814427
20
3.047962
11
9.81247
21
3.048589
12
9.804646
22
3.049216
13
9.804646
23
3.049216
0
SOLID
8
1
62
3
10
9.788997
20
3.048589
11
9.78753
21
3.048589
12
9.779216
22
3.045455
13
9.779216
23
3.045455
0
SOLID
8
1
62
3
10
9.844748
20
3.022257
11
9.839857
21
3.031034
12
9.83888
22
3.031034
13
9.83888
23
3.031034
0
SOLID
8
1
62
3
10
9.819318
20
2.953918
11
9.824208
21
2.956426
12
9.828609
22
2.958934
13
9.828609
23
2.958934
0
SOLID
8
1
62
3
10
9.849638
20
2.995925
11
9.850127
21
2.997179
12
9.849638
22
3.006583
13
9.849638
23
3.006583
0
SOLID
8
1
62
3
10
9.825675
20
3.042947
11
9.81785
21
3.046709
12
9.815894
22
3.047335
13
9.815894
23
3.047335
0
SOLID
8
1
62
3
10
9.753296
20
2.982759
11
9.755253
21
2.977743
12
9.757698
22
2.972727
13
9.757698
23
2.972727
0
SOLID
8
1
62
3
10
9.815894
20
3.047335
11
9.814427
21
3.047962
12
9.804646
22
3.049216
13
9.804646
23
3.049216
0
SOLID
8
1
62
3
10
9.770902
20
3.040439
11
9.765522
21
3.03605
12
9.762099
22
3.032915
13
9.762099
23
3.032915
0
SOLID
8
1
62
3
10
9.83888
20
3.031034
11
9.835456
21
3.035423
12
9.830565
22
3.039812
13
9.830565
23
3.039812
0
SOLID
8
1
62
3
10
9.770902
20
3.040439
11
9.762099
21
3.032915
12
9.76161
22
3.032289
13
9.76161
23
3.032289
0
SOLID
8
1
62
3
10
9.752808
20
3.014734
11
9.751829
21
3.010972
12
9.750362
22
3.002194
13
9.750362
23
3.002194
0
SOLID
8
1
62
3
10
9.762099
20
2.967712
11
9.765034
21
2.96395
12
9.77188
22
2.958934
13
9.77188
23
2.958934
0
SOLID
8
1
62
3
10
9.788997
20
3.048589
11
9.779216
21
3.045455
12
9.776281
22
3.043574
13
9.776281
23
3.043574
0
SOLID
8
1
62
3
10
9.83888
20
2.968966
11
9.842792
21
2.973354
12
9.846215
22
2.980878
13
9.846215
23
2.980878
0
SOLID
8
1
62
3
10
9.828609
20
2.958934
11
9.835456
21
2.96395
12
9.83888
22
2.968966
13
9.83888
23
2.968966
0
SOLID
8
1
62
3
10
9.804646
20
2.950784
11
9.810025
21
2.950784
12
9.819318
22
2.953918
13
9.819318
23
2.953918
0
SOLID
8
1
62
3
10
9.846215
20
2.980878
11
9.848171
21
2.987774
12
9.849638
22
2.995925
13
9.849638
23
2.995925
0
SOLID
8
1
62
3
10
9.804646
20
3.049216
11
9.794866
21
3.049216
12
9.788997
22
3.048589
13
9.788997
23
3.048589
0
SOLID
8
1
62
3
10
9.779216
20
2.954545
11
9.78753
21
2.951411
12
9.794866
22
2.950784
13
9.794866
23
2.950784
0
SOLID
8
1
62
3
10
9.750362
20
3.002194
11
9.750851
21
2.99279
12
9.752318
22
2.985893
13
9.752318
23
2.985893
0
SOLID
8
1
62
3
10
9.849638
20
3.006583
11
9.848171
21
3.012853
12
9.844748
22
3.022257
13
9.844748
23
3.022257
0
SOLID
8
1
62
3
10
9.830565
20
3.039812
11
9.825675
21
3.042947
12
9.815894
22
3.047335
13
9.815894
23
3.047335
0
SOLID
8
1
62
3
10
9.753785
20
3.019122
11
9.752808
21
3.014734
12
9.750362
22
3.002194
13
9.750362
23
3.002194
0
SOLID
8
1
62
3
10
9.753296
20
2.982759
11
9.757698
21
2.972727
12
9.762099
22
2.967712
13
9.762099
23
2.967712
0
SOLID
8
1
62
3
10
9.770902
20
3.040439
11
9.76161
21
3.032289
12
9.758186
22
3.027273
13
9.758186
23
3.027273
0
SOLID
8
1
62
3
10
9.754274
20
3.020376
11
9.753785
21
3.019122
12
9.750362
22
3.002194
13
9.750362
23
3.002194
0
SOLID
8
1
62
3
10
9.750362
20
3.002194
11
9.752318
21
2.985893
12
9.752808
22
2.983386
13
9.752808
23
2.983386
0
SOLID
8
1
62
3
10
9.770902
20
3.040439
11
9.758186
21
3.027273
12
9.757698
22
3.026646
13
9.757698
23
3.026646
0
SOLID
8
1
62
3
10
9.754764
20
3.021003
11
9.754274
21
3.020376
12
9.750362
22
3.002194
13
9.750362
23
3.002194
0
SOLID
8
1
62
3
10
9.750362
20
3.002194
11
9.752808
21
2.983386
12
9.753296
22
2.982759
13
9.753296
23
2.982759
0
SOLID
8
1
62
3
10
9.788997
20
3.048589
11
9.776281
21
3.043574
12
9.770902
22
3.040439
13
9.770902
23
3.040439
0
SOLID
8
1
62
3
10
9.755253
20
3.022257
11
9.754764
21
3.021003
12
9.750362
22
3.002194
13
9.750362
23
3.002194
0
SOLID
8
1
62
3
10
9.762099
20
2.967712
11
9.77188
21
2.958934
12
9.779216
22
2.954545
13
9.779216
23
2.954545
0
SOLID
8
1
62
3
10
9.770902
20
3.040439
11
9.757698
21
3.026646
12
9.75623
22
3.024138
13
9.75623
23
3.024138
0
SOLID
8
1
62
3
10
9.844748
20
3.022257
11
9.83888
21
3.031034
12
9.830565
22
3.039812
13
9.830565
23
3.039812
0
SOLID
8
1
62
3
10
9.75623
20
3.024138
11
9.755253
21
3.022257
12
9.750362
22
3.002194
13
9.750362
23
3.002194
0
SOLID
8
1
62
3
10
9.794866
20
2.950784
11
9.804646
21
2.950784
12
9.819318
22
2.953918
13
9.819318
23
2.953918
0
SOLID
8
1
62
3
10
9.819318
20
2.953918
11
9.828609
21
2.958934
12
9.83888
22
2.968966
13
9.83888
23
2.968966
0
SOLID
8
1
62
3
10
9.846215
20
2.980878
11
9.849638
21
2.995925
12
9.849638
22
3.006583
13
9.849638
23
3.006583
0
SOLID
8
1
62
3
10
9.815894
20
3.047335
11
9.804646
21
3.049216
12
9.788997
22
3.048589
13
9.788997
23
3.048589
0
SOLID
8
1
62
3
10
9.750362
20
3.002194
11
9.753296
21
2.982759
12
9.762099
22
2.967712
13
9.762099
23
2.967712
0
SOLID
8
1
62
3
10
9.762099
20
2.967712
11
9.779216
21
2.954545
12
9.794866
22
2.950784
13
9.794866
23
2.950784
0
SOLID
8
1
62
3
10
9.819318
20
2.953918
11
9.83888
21
2.968966
12
9.846215
22
2.980878
13
9.846215
23
2.980878
0
SOLID
8
1
62
3
10
9.844748
20
3.022257
11
9.830565
21
3.039812
12
9.815894
22
3.047335
13
9.815894
23
3.047335
0
SOLID
8
1
62
3
10
9.788997
20
3.048589
11
9.770902
21
3.040439
12
9.75623
22
3.024138
13
9.75623
23
3.024138
0
SOLID
8
1
62
3
10
9.846215
20
2.980878
11
9.849638
21
3.006583
12
9.844748
22
3.022257
13
9.844748
23
3.022257
0
SOLID
8
1
62
3
10
9.75623
20
3.024138
11
9.750362
21
3.002194
12
9.762099
22
2.967712
13
9.762099
23
2.967712
0
SOLID
8
1
62
3
10
9.762099
20
2.967712
11
9.794866
21
2.950784
12
9.819318
22
2.953918
13
9.819318
23
2.953918
0
SOLID
8
1
62
3
10
9.844748
20
3.022257
11
9.815894
21
3.047335
12
9.788997
22
3.048589
13
9.788997
23
3.048589
0
SOLID
8
1
62
3
10
9.819318
20
2.953918
11
9.846215
21
2.980878
12
9.844748
22
3.022257
13
9.844748
23
3.022257
0
SOLID
8
1
62
3
10
9.788997
20
3.048589
11
9.75623
21
3.024138
12
9.762099
22
2.967712
13
9.762099
23
2.967712
0
SOLID
8
1
62
3
10
9.762099
20
2.967712
11
9.819318
21
2.953918
12
9.844748
22
3.022257
13
9.844748
23
3.022257
0
SOLID
8
1
62
3
10
9.762099
20
2.967712
11
9.844748
21
3.022257
12
9.788997
22
3.048589
13
9.788997
23
3.048589
0
ENDBLK
8
0
0
ENDSEC
0
SECTION
2
ENTITIES
0
INSERT
8
1
2
PNTGREEN-G1
10
0
20
0
0
ENDSEC
0
EOF
