0
SECTION
2
HEADER
9
$LTSCALE
40
0.5
9
$LIMMIN
10
0
20
0
9
$LIMMAX
10
12
20
9
9
$EXTMIN
10
7.8
20
3
9
$EXTMAX
10
9.4
20
7.4
9
$SNAPMODE
70
1
9
$SNAPUNIT
10
0.1
20
0.1
9
$GRIDMODE
70
0
9
$GRIDUNIT
10
0.1
20
0.1
9
$ORTHOMODE
70
0
9
$TEXTSTYLE
7
txt
9
$CLAYER
8
1
9
$CECOLOR
62
5
9
$CELTYPE
6
CONTINUOUS
9
$OSMODE
70
0
0
ENDSEC
0
SECTION
2
TABLES
0
TABLE
2
STYLE
70
1
0
STYLE
2
STANDARD
70
0
40
0
41
1
50
0
71
0
42
0.2
3
txt
4

0
ENDTAB
0
TABLE
2
LTYPE
70
9
0
LTYPE
2
DASHED
70
0
3
__ __ __ __ __ __ __ __ __ __ __ __ __ __ __
72
65
73
2
40
0.75
49
0.5
49
-0.25
0
LTYPE
2
HIDDEN
70
0
3
_ _ _ _ _ _ _ _ _ _ _ _ _ _ _ _ _ _ _ _ _ _ 
72
65
73
2
40
0.375
49
0.25
49
-0.125
0
LTYPE
2
CENTER
70
0
3
____ _ ____ _ ____ _ ____ _ ____ _ ____ _ __
72
65
73
4
40
2
49
1.25
49
-0.25
49
0.25
49
-0.25
0
LTYPE
2
PHANTOM
70
0
3
_____ _ _ _____ _ _ _____ _ _ _____ _ _ ____
72
65
73
6
40
2.5
49
1.25
49
-0.25
49
0.25
49
-0.25
49
0.25
49
-0.25
0
LTYPE
2
DOT
70
0
3
............................................
72
65
73
2
40
0.25
49
0
49
-0.25
0
LTYPE
2
DASHDOT
70
0
3
__ . __ . __ . __ . __ . __ . __ . __ . __ .
72
65
73
4
40
1
49
0.5
49
-0.25
49
0
49
-0.25
0
LTYPE
2
BORDER
70
0
3
__ __ . __ __ . __ __ . __ __ . __ __ . __ _
72
65
73
6
40
1.75
49
0.5
49
-0.25
49
0.5
49
-0.25
49
0
49
-0.25
0
LTYPE
2
DIVIDE
70
0
3
__ . . __ . . __ . . __ . . __ . . __ . . __
72
65
73
6
40
1.25
49
0.5
49
-0.25
49
0
49
-0.25
49
0
49
-0.25
0
LTYPE
2
DOTS
70
0
3
close
72
65
73
2
40
0.1
49
0.05
49
-0.05
0
ENDTAB
0
TABLE
2
LAYER
70
10
0
LAYER
2
1
70
0
62
7
6
CONTINUOUS
0
LAYER
2
2
70
0
62
7
6
CONTINUOUS
0
LAYER
2
3
70
0
62
7
6
CONTINUOUS
0
LAYER
2
4
70
0
62
7
6
CONTINUOUS
0
LAYER
2
5
70
0
62
7
6
CONTINUOUS
0
LAYER
2
6
70
0
62
7
6
CONTINUOUS
0
LAYER
2
7
70
0
62
7
6
CONTINUOUS
0
LAYER
2
8
70
0
62
7
6
CONTINUOUS
0
LAYER
2
9
70
0
62
7
6
CONTINUOUS
0
LAYER
2
10
70
0
62
7
6
CONTINUOUS
0
ENDTAB
0
ENDSEC
0
SECTION
2
BLOCKS
0
BLOCK
8
0
2
PIN40-G1
70
0
10
0
20
0
0
LINE
8
1
62
5
10
8.099999
20
3.3
11
8.099999
21
5
0
LINE
8
1
62
5
10
9.099999
20
3.3
11
9.099999
21
5
0
LINE
8
1
62
5
10
8.099999
20
3.2
11
9.099999
21
3.2
0
LINE
8
1
62
5
10
8.599999
20
3.2
11
8.599999
21
3
0
LINE
8
1
62
5
10
8.1
20
3.2
11
8.1
21
3.3
0
LINE
8
1
62
5
10
7.8
20
4.2
11
8.099999
21
4.2
0
LINE
8
1
62
5
10
7.8
20
4
11
8.099999
21
4
0
LINE
8
1
62
5
10
7.8
20
3.8
11
8.099999
21
3.8
0
LINE
8
1
62
5
10
7.8
20
3.6
11
8.099999
21
3.6
0
LINE
8
1
62
5
10
7.8
20
3.4
11
8.099999
21
3.4
0
LINE
8
1
62
5
10
7.8
20
4.4
11
8.099999
21
4.4
0
LINE
8
1
62
5
10
9.1
20
3.2
11
9.1
21
3.3
0
LINE
8
1
62
5
10
9.099999
20
4.2
11
9.4
21
4.2
0
LINE
8
1
62
5
10
9.099999
20
4
11
9.4
21
4
0
LINE
8
1
62
5
10
9.099999
20
3.8
11
9.4
21
3.8
0
LINE
8
1
62
5
10
9.099999
20
3.6
11
9.4
21
3.6
0
LINE
8
1
62
5
10
9.099999
20
3.4
11
9.4
21
3.4
0
LINE
8
1
62
5
10
9.099999
20
4.4
11
9.4
21
4.4
0
LINE
8
1
62
5
10
8.099999
20
7.2
11
9.099999
21
7.2
0
LINE
8
1
62
5
10
8.099999
20
5.3
11
8.099999
21
7
0
LINE
8
1
62
5
10
7.8
20
5.4
11
8.099999
21
5.4
0
LINE
8
1
62
5
10
7.8
20
5
11
8.099999
21
5
0
LINE
8
1
62
5
10
7.8
20
4.8
11
8.099999
21
4.8
0
LINE
8
1
62
5
10
7.8
20
4.6
11
8.099999
21
4.6
0
LINE
8
1
62
5
10
8.099999
20
5
11
8.099999
21
5.1
0
LINE
8
1
62
5
10
8.099999
20
5.1
11
8.099999
21
5.3
0
LINE
8
1
62
5
10
8.099999
20
5.2
11
7.8
21
5.2
0
LINE
8
1
62
5
10
7.8
20
5.6
11
8.099999
21
5.6
0
LINE
8
1
62
5
10
7.8
20
6.6
11
8.099999
21
6.6
0
LINE
8
1
62
5
10
7.8
20
6.4
11
8.099999
21
6.4
0
LINE
8
1
62
5
10
7.8
20
6.2
11
8.099999
21
6.2
0
LINE
8
1
62
5
10
7.8
20
6
11
8.099999
21
6
0
LINE
8
1
62
5
10
7.8
20
5.8
11
8.099999
21
5.8
0
LINE
8
1
62
5
10
7.8
20
7
11
8.099999
21
7
0
LINE
8
1
62
5
10
7.8
20
6.8
11
8.099999
21
6.8
0
LINE
8
1
62
5
10
8.099999
20
7
11
8.099999
21
7.1
0
LINE
8
1
62
5
10
8.599999
20
7.4
11
8.599999
21
7.2
0
LINE
8
1
62
5
10
8.1
20
7.2
11
8.1
21
7.1
0
LINE
8
1
62
5
10
9.099999
20
5.3
11
9.099999
21
7
0
LINE
8
1
62
5
10
9.099999
20
5.4
11
9.4
21
5.4
0
LINE
8
1
62
5
10
9.099999
20
5.1
11
9.099999
21
5
0
LINE
8
1
62
5
10
9.099999
20
5
11
9.4
21
5
0
LINE
8
1
62
5
10
9.099999
20
4.8
11
9.4
21
4.8
0
LINE
8
1
62
5
10
9.099999
20
4.6
11
9.4
21
4.6
0
LINE
8
1
62
5
10
9.099999
20
5.2
11
9.4
21
5.2
0
LINE
8
1
62
5
10
9.099999
20
5.3
11
9.099999
21
5.1
0
LINE
8
1
62
5
10
9.099999
20
5.6
11
9.4
21
5.6
0
LINE
8
1
62
5
10
9.099999
20
6.6
11
9.4
21
6.6
0
LINE
8
1
62
5
10
9.099999
20
6.4
11
9.4
21
6.4
0
LINE
8
1
62
5
10
9.099999
20
6.2
11
9.4
21
6.2
0
LINE
8
1
62
5
10
9.099999
20
6
11
9.4
21
6
0
LINE
8
1
62
5
10
9.099999
20
5.8
11
9.4
21
5.8
0
LINE
8
1
62
5
10
9.099999
20
7.1
11
9.099999
21
7
0
LINE
8
1
62
5
10
9.099999
20
7
11
9.4
21
7
0
LINE
8
1
62
5
10
9.099999
20
6.8
11
9.4
21
6.8
0
LINE
8
1
62
5
10
9.1
20
7.1
11
9.1
21
7.2
0
ENDBLK
8
0
0
ENDSEC
0
SECTION
2
ENTITIES
0
INSERT
8
1
2
PIN40-G1
10
0
20
0
0
ENDSEC
0
EOF
