0
SECTION
2
HEADER
9
$LTSCALE
40
0.5
9
$LIMMIN
10
0
20
0
9
$LIMMAX
10
12
20
9
9
$EXTMIN
10
5
20
3.8
9
$EXTMAX
10
6.6
20
5.8
9
$SNAPMODE
70
1
9
$SNAPUNIT
10
0.1
20
0.1
9
$GRIDMODE
70
0
9
$GRIDUNIT
10
0.1
20
0.1
9
$ORTHOMODE
70
0
9
$TEXTSTYLE
7
txt
9
$CLAYER
8
1
9
$CECOLOR
62
4
9
$CELTYPE
6
CONTINUOUS
9
$OSMODE
70
0
0
ENDSEC
0
SECTION
2
TABLES
0
TABLE
2
STYLE
70
1
0
STYLE
2
STANDARD
70
0
40
0
41
1
50
0
71
0
42
0.2
3
txt
4

0
ENDTAB
0
TABLE
2
LTYPE
70
9
0
LTYPE
2
DASHED
70
0
3
__ __ __ __ __ __ __ __ __ __ __ __ __ __ __
72
65
73
2
40
0.75
49
0.5
49
-0.25
0
LTYPE
2
HIDDEN
70
0
3
_ _ _ _ _ _ _ _ _ _ _ _ _ _ _ _ _ _ _ _ _ _ 
72
65
73
2
40
0.375
49
0.25
49
-0.125
0
LTYPE
2
CENTER
70
0
3
____ _ ____ _ ____ _ ____ _ ____ _ ____ _ __
72
65
73
4
40
2
49
1.25
49
-0.25
49
0.25
49
-0.25
0
LTYPE
2
PHANTOM
70
0
3
_____ _ _ _____ _ _ _____ _ _ _____ _ _ ____
72
65
73
6
40
2.5
49
1.25
49
-0.25
49
0.25
49
-0.25
49
0.25
49
-0.25
0
LTYPE
2
DOT
70
0
3
............................................
72
65
73
2
40
0.25
49
0
49
-0.25
0
LTYPE
2
DASHDOT
70
0
3
__ . __ . __ . __ . __ . __ . __ . __ . __ .
72
65
73
4
40
1
49
0.5
49
-0.25
49
0
49
-0.25
0
LTYPE
2
BORDER
70
0
3
__ __ . __ __ . __ __ . __ __ . __ __ . __ _
72
65
73
6
40
1.75
49
0.5
49
-0.25
49
0.5
49
-0.25
49
0
49
-0.25
0
LTYPE
2
DIVIDE
70
0
3
__ . . __ . . __ . . __ . . __ . . __ . . __
72
65
73
6
40
1.25
49
0.5
49
-0.25
49
0
49
-0.25
49
0
49
-0.25
0
LTYPE
2
DOTS
70
0
3
close
72
65
73
2
40
0.1
49
0.05
49
-0.05
0
ENDTAB
0
TABLE
2
LAYER
70
10
0
LAYER
2
1
70
0
62
7
6
CONTINUOUS
0
LAYER
2
2
70
0
62
7
6
CONTINUOUS
0
LAYER
2
3
70
0
62
7
6
CONTINUOUS
0
LAYER
2
4
70
0
62
7
6
CONTINUOUS
0
LAYER
2
5
70
0
62
7
6
CONTINUOUS
0
LAYER
2
6
70
0
62
7
6
CONTINUOUS
0
LAYER
2
7
70
0
62
7
6
CONTINUOUS
0
LAYER
2
8
70
0
62
7
6
CONTINUOUS
0
LAYER
2
9
70
0
62
7
6
CONTINUOUS
0
LAYER
2
10
70
0
62
7
6
CONTINUOUS
0
ENDTAB
0
ENDSEC
0
SECTION
2
BLOCKS
0
BLOCK
8
0
2
PIN16-G1
70
0
10
0
20
0
0
LINE
8
1
62
5
10
5.3
20
4
11
6.3
21
4
0
LINE
8
1
62
5
10
5.3
20
5.6
11
6.3
21
5.6
0
LINE
8
1
62
5
10
5.3
20
5.4
11
5.3
21
4.1
0
LINE
8
1
62
5
10
5
20
4.4
11
5.3
21
4.4
0
LINE
8
1
62
5
10
5
20
4.2
11
5.3
21
4.2
0
LINE
8
1
62
5
10
5.8
20
4
11
5.8
21
3.8
0
LINE
8
1
62
5
10
5.3
20
4
11
5.3
21
4.1
0
LINE
8
1
62
5
10
5.8
20
5.8
11
5.8
21
5.6
0
LINE
8
1
62
5
10
5
20
5.4
11
5.3
21
5.4
0
LINE
8
1
62
5
10
5
20
5.2
11
5.3
21
5.2
0
LINE
8
1
62
5
10
5
20
5
11
5.3
21
5
0
LINE
8
1
62
5
10
5
20
4.8
11
5.3
21
4.8
0
LINE
8
1
62
5
10
5
20
4.6
11
5.3
21
4.6
0
LINE
8
1
62
5
10
5.3
20
5.4
11
5.3
21
5.5
0
LINE
8
1
62
5
10
5.3
20
5.5
11
5.3
21
5.6
0
LINE
8
1
62
5
10
6.3
20
5.4
11
6.3
21
4.1
0
LINE
8
1
62
5
10
6.3
20
4.4
11
6.6
21
4.4
0
LINE
8
1
62
5
10
6.3
20
4.2
11
6.6
21
4.2
0
LINE
8
1
62
5
10
6.3
20
4
11
6.3
21
4.1
0
LINE
8
1
62
5
10
6.3
20
5.5
11
6.3
21
5.4
0
LINE
8
1
62
5
10
6.3
20
5.4
11
6.6
21
5.4
0
LINE
8
1
62
5
10
6.3
20
5.2
11
6.6
21
5.2
0
LINE
8
1
62
5
10
6.3
20
5
11
6.6
21
5
0
LINE
8
1
62
5
10
6.3
20
4.8
11
6.6
21
4.8
0
LINE
8
1
62
5
10
6.3
20
4.6
11
6.6
21
4.6
0
LINE
8
1
62
5
10
6.3
20
5.6
11
6.3
21
5.5
0
ENDBLK
8
0
0
ENDSEC
0
SECTION
2
ENTITIES
0
INSERT
8
1
2
PIN16-G1
10
0
20
0
0
ENDSEC
0
EOF
